ISO-10303-21;
HEADER;
/* Generated by software containing ST-Developer
 * from STEP Tools, Inc. (www.steptools.com) 
 */

FILE_DESCRIPTION(
/* description */ (''),
/* implementation_level */ '2;1');

FILE_NAME(
/* name */ 'QA_100_N.dxf',
/* time_stamp */ '2012-11-23T16:40:23+08:00',
/* author */ (''),
/* organization */ (''),
/* preprocessor_version */ 'ST-DEVELOPER v9',
/* originating_system */ 'UGS - NX 4.0',
/* authorisation */ '');

FILE_SCHEMA (('CONFIG_CONTROL_DESIGN'));
ENDSEC;

DATA;
#10=SHAPE_REPRESENTATION_RELATIONSHIP('None',
'relationship between Admi3F2Dxmr3-None and Admi3F2Dxmr3-None',#94,#11);
#11=ADVANCED_BREP_SHAPE_REPRESENTATION('Admi3F2Dxmr3-None',(#95),#393);
#12=CC_DESIGN_APPROVAL(#24,(#82));
#13=CC_DESIGN_APPROVAL(#25,(#84));
#14=CC_DESIGN_APPROVAL(#26,(#31));
#15=APPROVAL_PERSON_ORGANIZATION(#69,#24,#18);
#16=APPROVAL_PERSON_ORGANIZATION(#70,#25,#19);
#17=APPROVAL_PERSON_ORGANIZATION(#71,#26,#20);
#18=APPROVAL_ROLE('approver');
#19=APPROVAL_ROLE('approver');
#20=APPROVAL_ROLE('approver');
#21=APPROVAL_DATE_TIME(#39,#24);
#22=APPROVAL_DATE_TIME(#40,#25);
#23=APPROVAL_DATE_TIME(#41,#26);
#24=APPROVAL(#27,' ');
#25=APPROVAL(#28,' ');
#26=APPROVAL(#29,' ');
#27=APPROVAL_STATUS('not_yet_approved');
#28=APPROVAL_STATUS('not_yet_approved');
#29=APPROVAL_STATUS('not_yet_approved');
#30=CC_DESIGN_SECURITY_CLASSIFICATION(#31,(#84));
#31=SECURITY_CLASSIFICATION(' ',' ',#32);
#32=SECURITY_CLASSIFICATION_LEVEL('confidential');
#33=CC_DESIGN_DATE_AND_TIME_ASSIGNMENT(#37,#35,(#82));
#34=CC_DESIGN_DATE_AND_TIME_ASSIGNMENT(#38,#36,(#31));
#35=DATE_TIME_ROLE('creation_date');
#36=DATE_TIME_ROLE('classification_date');
#37=DATE_AND_TIME(#52,#42);
#38=DATE_AND_TIME(#53,#43);
#39=DATE_AND_TIME(#54,#44);
#40=DATE_AND_TIME(#55,#45);
#41=DATE_AND_TIME(#56,#46);
#42=LOCAL_TIME(0,0,0.,#47);
#43=LOCAL_TIME(0,0,0.,#48);
#44=LOCAL_TIME(0,0,0.,#49);
#45=LOCAL_TIME(0,0,0.,#50);
#46=LOCAL_TIME(0,0,0.,#51);
#47=COORDINATED_UNIVERSAL_TIME_OFFSET(0,0,.BEHIND.);
#48=COORDINATED_UNIVERSAL_TIME_OFFSET(0,0,.BEHIND.);
#49=COORDINATED_UNIVERSAL_TIME_OFFSET(0,0,.BEHIND.);
#50=COORDINATED_UNIVERSAL_TIME_OFFSET(0,0,.BEHIND.);
#51=COORDINATED_UNIVERSAL_TIME_OFFSET(0,0,.BEHIND.);
#52=CALENDAR_DATE(0,1,1);
#53=CALENDAR_DATE(0,1,1);
#54=CALENDAR_DATE(0,1,1);
#55=CALENDAR_DATE(0,1,1);
#56=CALENDAR_DATE(0,1,1);
#57=CC_DESIGN_PERSON_AND_ORGANIZATION_ASSIGNMENT(#65,#61,(#82,#84));
#58=CC_DESIGN_PERSON_AND_ORGANIZATION_ASSIGNMENT(#66,#62,(#86));
#59=CC_DESIGN_PERSON_AND_ORGANIZATION_ASSIGNMENT(#67,#63,(#84));
#60=CC_DESIGN_PERSON_AND_ORGANIZATION_ASSIGNMENT(#68,#64,(#31));
#61=PERSON_AND_ORGANIZATION_ROLE('creator');
#62=PERSON_AND_ORGANIZATION_ROLE('design_owner');
#63=PERSON_AND_ORGANIZATION_ROLE('design_supplier');
#64=PERSON_AND_ORGANIZATION_ROLE('classification_officer');
#65=PERSON_AND_ORGANIZATION(#79,#72);
#66=PERSON_AND_ORGANIZATION(#79,#73);
#67=PERSON_AND_ORGANIZATION(#79,#74);
#68=PERSON_AND_ORGANIZATION(#79,#75);
#69=PERSON_AND_ORGANIZATION(#79,#76);
#70=PERSON_AND_ORGANIZATION(#79,#77);
#71=PERSON_AND_ORGANIZATION(#79,#78);
#72=ORGANIZATION(' ',' ',' ');
#73=ORGANIZATION(' ',' ',' ');
#74=ORGANIZATION(' ',' ',' ');
#75=ORGANIZATION(' ',' ',' ');
#76=ORGANIZATION(' ',' ',' ');
#77=ORGANIZATION(' ',' ',' ');
#78=ORGANIZATION(' ',' ',' ');
#79=PERSON(' ',' ',' ',(' '),$,$);
#80=SHAPE_DEFINITION_REPRESENTATION(#81,#94);
#81=PRODUCT_DEFINITION_SHAPE('','',#82);
#82=PRODUCT_DEFINITION(' ','',#84,#83);
#83=DESIGN_CONTEXT('',#93,'design');
#84=PRODUCT_DEFINITION_FORMATION_WITH_SPECIFIED_SOURCE(' ',' ',#86,.NOT_KNOWN.);
#85=PRODUCT_RELATED_PRODUCT_CATEGORY('detail','',(#86));
#86=PRODUCT('Admi3F2Dxmr3','Admi3F2Dxmr3',' ',(#91));
#87=PRODUCT_CATEGORY_RELATIONSHIP(' ',' ',#89,#90);
#88=PRODUCT_CATEGORY_RELATIONSHIP('','',#90,#85);
#89=PRODUCT_CATEGORY('part',' ');
#90=PRODUCT_CATEGORY(' ','');
#91=MECHANICAL_CONTEXT(' ',#93,'mechanical');
#92=APPLICATION_PROTOCOL_DEFINITION('international standard',
'config_control_design',1994,#93);
#93=APPLICATION_CONTEXT(
'configuration controlled 3D designs of mechanical parts and assemblies
');
#94=SHAPE_REPRESENTATION('Admi3F2Dxmr3-None',(#259),#393);
#95=MANIFOLD_SOLID_BREP('',#96);
#96=CLOSED_SHELL('',(#116,#117,#118,#119,#120,#121,#122,#123,#124,#125));
#97=TOROIDAL_SURFACE('',#274,11.5,5.00000000000001);
#98=(
BOUNDED_CURVE()
B_SPLINE_CURVE(3,(#357,#358,#359,#360),.UNSPECIFIED.,.F.,.F.)
B_SPLINE_CURVE_WITH_KNOTS((4,4),(0.,1.),.UNSPECIFIED.)
CURVE()
GEOMETRIC_REPRESENTATION_ITEM()
RATIONAL_B_SPLINE_CURVE((1.,0.333333333333333,0.333333333333333,1.))
REPRESENTATION_ITEM('')
);
#99=CYLINDRICAL_SURFACE('',#266,3.30000000000003);
#100=CYLINDRICAL_SURFACE('',#270,15.);
#101=CYLINDRICAL_SURFACE('',#278,7.50000000000001);
#102=FACE_BOUND('',#140,.T.);
#103=FACE_BOUND('',#141,.T.);
#104=FACE_BOUND('',#143,.T.);
#105=FACE_BOUND('',#144,.T.);
#106=FACE_BOUND('',#145,.T.);
#107=FACE_BOUND('',#146,.T.);
#108=FACE_BOUND('',#148,.T.);
#109=FACE_BOUND('',#152,.T.);
#110=FACE_BOUND('',#153,.T.);
#111=FACE_BOUND('',#154,.T.);
#112=B_SPLINE_CURVE_WITH_KNOTS('',1,(#338,#339),.UNSPECIFIED.,.F.,.F.,(2,
2),(0.,1.),.UNSPECIFIED.);
#113=B_SPLINE_CURVE_WITH_KNOTS('',1,(#344,#345),.UNSPECIFIED.,.F.,.F.,(2,
2),(0.,1.),.UNSPECIFIED.);
#114=B_SPLINE_CURVE_WITH_KNOTS('',3,(#372,#373,#374,#375,#376,#377),.UNSPECIFIED.,
.F.,.F.,(4,2,4),(0.,0.5,1.),.UNSPECIFIED.);
#115=B_SPLINE_CURVE_WITH_KNOTS('',3,(#378,#379,#380,#381,#382,#383),.UNSPECIFIED.,
.F.,.F.,(4,2,4),(0.,0.5,1.),.UNSPECIFIED.);
#116=ADVANCED_FACE('',(#132),#126,.T.);
#117=ADVANCED_FACE('',(#102,#103),#99,.F.);
#118=ADVANCED_FACE('',(#133),#127,.T.);
#119=ADVANCED_FACE('',(#104,#105),#100,.T.);
#120=ADVANCED_FACE('',(#106,#107,#134,#108),#128,.F.);
#121=ADVANCED_FACE('',(#135),#97,.T.);
#122=ADVANCED_FACE('',(#136),#129,.T.);
#123=ADVANCED_FACE('',(#137),#130,.T.);
#124=ADVANCED_FACE('',(#109,#110),#101,.T.);
#125=ADVANCED_FACE('',(#111,#138),#131,.F.);
#126=PLANE('',#262);
#127=PLANE('',#268);
#128=PLANE('',#273);
#129=PLANE('',#275);
#130=PLANE('',#276);
#131=PLANE('',#279);
#132=FACE_OUTER_BOUND('',#139,.T.);
#133=FACE_OUTER_BOUND('',#142,.T.);
#134=FACE_OUTER_BOUND('',#147,.T.);
#135=FACE_OUTER_BOUND('',#149,.T.);
#136=FACE_OUTER_BOUND('',#150,.T.);
#137=FACE_OUTER_BOUND('',#151,.T.);
#138=FACE_OUTER_BOUND('',#155,.T.);
#139=EDGE_LOOP('',(#166,#167,#168,#169));
#140=EDGE_LOOP('',(#170,#171,#172,#173,#174,#175));
#141=EDGE_LOOP('',(#176));
#142=EDGE_LOOP('',(#177));
#143=EDGE_LOOP('',(#178));
#144=EDGE_LOOP('',(#179));
#145=EDGE_LOOP('',(#180,#181));
#146=EDGE_LOOP('',(#182,#183));
#147=EDGE_LOOP('',(#184,#185,#186,#187));
#148=EDGE_LOOP('',(#188));
#149=EDGE_LOOP('',(#189,#190,#191,#192));
#150=EDGE_LOOP('',(#193,#194,#195,#196));
#151=EDGE_LOOP('',(#197,#198,#199,#200));
#152=EDGE_LOOP('',(#201,#202,#203,#204));
#153=EDGE_LOOP('',(#205));
#154=EDGE_LOOP('',(#206));
#155=EDGE_LOOP('',(#207));
#156=CIRCLE('',#260,7.50000000000001);
#157=CIRCLE('',#261,15.4999999814564);
#158=CIRCLE('',#263,3.30000000000003);
#159=CIRCLE('',#264,3.30000000000003);
#160=CIRCLE('',#265,3.30000000000003);
#161=CIRCLE('',#267,15.);
#162=CIRCLE('',#269,15.);
#163=CIRCLE('',#271,7.50000000000001);
#164=CIRCLE('',#272,15.4999999814564);
#165=CIRCLE('',#277,7.50000000000001);
#166=ORIENTED_EDGE('',*,*,#226,.F.);
#167=ORIENTED_EDGE('',*,*,#227,.T.);
#168=ORIENTED_EDGE('',*,*,#228,.T.);
#169=ORIENTED_EDGE('',*,*,#229,.T.);
#170=ORIENTED_EDGE('',*,*,#230,.F.);
#171=ORIENTED_EDGE('',*,*,#231,.T.);
#172=ORIENTED_EDGE('',*,*,#232,.F.);
#173=ORIENTED_EDGE('',*,*,#232,.T.);
#174=ORIENTED_EDGE('',*,*,#233,.F.);
#175=ORIENTED_EDGE('',*,*,#230,.T.);
#176=ORIENTED_EDGE('',*,*,#234,.T.);
#177=ORIENTED_EDGE('',*,*,#235,.T.);
#178=ORIENTED_EDGE('',*,*,#235,.F.);
#179=ORIENTED_EDGE('',*,*,#236,.T.);
#180=ORIENTED_EDGE('',*,*,#237,.F.);
#181=ORIENTED_EDGE('',*,*,#237,.T.);
#182=ORIENTED_EDGE('',*,*,#231,.F.);
#183=ORIENTED_EDGE('',*,*,#233,.T.);
#184=ORIENTED_EDGE('',*,*,#238,.T.);
#185=ORIENTED_EDGE('',*,*,#239,.F.);
#186=ORIENTED_EDGE('',*,*,#240,.F.);
#187=ORIENTED_EDGE('',*,*,#241,.F.);
#188=ORIENTED_EDGE('',*,*,#236,.F.);
#189=ORIENTED_EDGE('',*,*,#242,.F.);
#190=ORIENTED_EDGE('',*,*,#229,.F.);
#191=ORIENTED_EDGE('',*,*,#243,.T.);
#192=ORIENTED_EDGE('',*,*,#241,.T.);
#193=ORIENTED_EDGE('',*,*,#226,.T.);
#194=ORIENTED_EDGE('',*,*,#242,.T.);
#195=ORIENTED_EDGE('',*,*,#240,.T.);
#196=ORIENTED_EDGE('',*,*,#244,.T.);
#197=ORIENTED_EDGE('',*,*,#243,.F.);
#198=ORIENTED_EDGE('',*,*,#228,.F.);
#199=ORIENTED_EDGE('',*,*,#245,.F.);
#200=ORIENTED_EDGE('',*,*,#238,.F.);
#201=ORIENTED_EDGE('',*,*,#244,.F.);
#202=ORIENTED_EDGE('',*,*,#239,.T.);
#203=ORIENTED_EDGE('',*,*,#245,.T.);
#204=ORIENTED_EDGE('',*,*,#227,.F.);
#205=ORIENTED_EDGE('',*,*,#246,.F.);
#206=ORIENTED_EDGE('',*,*,#234,.F.);
#207=ORIENTED_EDGE('',*,*,#246,.T.);
#208=VERTEX_POINT('',#330);
#209=VERTEX_POINT('',#331);
#210=VERTEX_POINT('',#333);
#211=VERTEX_POINT('',#335);
#212=VERTEX_POINT('',#340);
#213=VERTEX_POINT('',#341);
#214=VERTEX_POINT('',#343);
#215=VERTEX_POINT('',#346);
#216=VERTEX_POINT('',#349);
#217=VERTEX_POINT('',#352);
#218=VERTEX_POINT('',#355);
#219=VERTEX_POINT('',#361);
#220=VERTEX_POINT('',#362);
#221=VERTEX_POINT('',#364);
#222=VERTEX_POINT('',#365);
#223=VERTEX_POINT('',#367);
#224=VERTEX_POINT('',#369);
#225=VERTEX_POINT('',#390);
#226=EDGE_CURVE('',#208,#209,#247,.T.);
#227=EDGE_CURVE('',#208,#210,#156,.T.);
#228=EDGE_CURVE('',#210,#211,#248,.T.);
#229=EDGE_CURVE('',#211,#209,#157,.T.);
#230=EDGE_CURVE('',#212,#213,#112,.T.);
#231=EDGE_CURVE('',#212,#214,#158,.T.);
#232=EDGE_CURVE('',#215,#214,#113,.T.);
#233=EDGE_CURVE('',#212,#214,#159,.T.);
#234=EDGE_CURVE('',#216,#216,#160,.T.);
#235=EDGE_CURVE('',#217,#217,#161,.T.);
#236=EDGE_CURVE('',#218,#218,#162,.T.);
#237=EDGE_CURVE('',#219,#220,#98,.T.);
#238=EDGE_CURVE('',#221,#222,#249,.T.);
#239=EDGE_CURVE('',#223,#222,#163,.T.);
#240=EDGE_CURVE('',#224,#223,#250,.T.);
#241=EDGE_CURVE('',#221,#224,#164,.T.);
#242=EDGE_CURVE('',#209,#224,#114,.T.);
#243=EDGE_CURVE('',#211,#221,#115,.T.);
#244=EDGE_CURVE('',#223,#208,#251,.T.);
#245=EDGE_CURVE('',#222,#210,#252,.T.);
#246=EDGE_CURVE('',#225,#225,#165,.T.);
#247=LINE('',#329,#253);
#248=LINE('',#334,#254);
#249=LINE('',#363,#255);
#250=LINE('',#368,#256);
#251=LINE('',#385,#257);
#252=LINE('',#387,#258);
#253=VECTOR('',#282,1.);
#254=VECTOR('',#285,1.);
#255=VECTOR('',#306,1.);
#256=VECTOR('',#309,1.);
#257=VECTOR('',#316,1.);
#258=VECTOR('',#319,1.);
#259=AXIS2_PLACEMENT_3D('',#328,#280,#281);
#260=AXIS2_PLACEMENT_3D('',#332,#283,#284);
#261=AXIS2_PLACEMENT_3D('',#336,#286,#287);
#262=AXIS2_PLACEMENT_3D('',#337,#288,#289);
#263=AXIS2_PLACEMENT_3D('',#342,#290,#291);
#264=AXIS2_PLACEMENT_3D('',#347,#292,#293);
#265=AXIS2_PLACEMENT_3D('',#348,#294,#295);
#266=AXIS2_PLACEMENT_3D('',#350,#296,#297);
#267=AXIS2_PLACEMENT_3D('',#351,#298,#299);
#268=AXIS2_PLACEMENT_3D('',#353,#300,#301);
#269=AXIS2_PLACEMENT_3D('',#354,#302,#303);
#270=AXIS2_PLACEMENT_3D('',#356,#304,#305);
#271=AXIS2_PLACEMENT_3D('',#366,#307,#308);
#272=AXIS2_PLACEMENT_3D('',#370,#310,#311);
#273=AXIS2_PLACEMENT_3D('',#371,#312,#313);
#274=AXIS2_PLACEMENT_3D('',#384,#314,#315);
#275=AXIS2_PLACEMENT_3D('',#386,#317,#318);
#276=AXIS2_PLACEMENT_3D('',#388,#320,#321);
#277=AXIS2_PLACEMENT_3D('',#389,#322,#323);
#278=AXIS2_PLACEMENT_3D('',#391,#324,#325);
#279=AXIS2_PLACEMENT_3D('',#392,#326,#327);
#280=DIRECTION('',(0.,0.,1.));
#281=DIRECTION('',(1.,0.,0.));
#282=DIRECTION('',(-0.999390827019096,0.,0.034899496702501));
#283=DIRECTION('',(0.,-1.,0.));
#284=DIRECTION('',(0.,0.,1.));
#285=DIRECTION('',(-0.999390827019096,0.,-0.034899496702501));
#286=DIRECTION('',(0.,1.,0.));
#287=DIRECTION('',(0.,0.,1.));
#288=DIRECTION('',(0.,1.,0.));
#289=DIRECTION('',(0.,0.,1.));
#290=DIRECTION('',(0.,-1.,0.));
#291=DIRECTION('',(0.,0.,1.));
#292=DIRECTION('',(0.,1.,0.));
#293=DIRECTION('',(0.,0.,1.));
#294=DIRECTION('',(0.,1.,0.));
#295=DIRECTION('',(0.,0.,1.));
#296=DIRECTION('',(0.,1.,0.));
#297=DIRECTION('',(0.,0.,1.));
#298=DIRECTION('',(0.,-1.,0.));
#299=DIRECTION('',(0.,0.,-1.));
#300=DIRECTION('',(0.,-1.,0.));
#301=DIRECTION('',(0.,0.,-1.));
#302=DIRECTION('',(0.,-1.,0.));
#303=DIRECTION('',(0.,0.,-1.));
#304=DIRECTION('',(0.,-1.,0.));
#305=DIRECTION('',(0.,0.,-1.));
#306=DIRECTION('',(0.999390827019096,0.,0.034899496702501));
#307=DIRECTION('',(0.,1.,0.));
#308=DIRECTION('',(0.,0.,1.));
#309=DIRECTION('',(0.999390827019096,0.,-0.034899496702501));
#310=DIRECTION('',(0.,1.,0.));
#311=DIRECTION('',(0.,0.,1.));
#312=DIRECTION('',(0.,1.,0.));
#313=DIRECTION('',(0.,0.,1.));
#314=DIRECTION('',(0.,1.,0.));
#315=DIRECTION('',(0.,0.,1.));
#316=DIRECTION('',(0.,1.,0.));
#317=DIRECTION('',(0.034899496702501,0.,0.999390827019096));
#318=DIRECTION('',(0.999390827019096,0.,-0.034899496702501));
#319=DIRECTION('',(0.,1.,0.));
#320=DIRECTION('',(0.034899496702501,0.,-0.999390827019096));
#321=DIRECTION('',(-0.999390827019096,0.,-0.034899496702501));
#322=DIRECTION('',(0.,1.,0.));
#323=DIRECTION('',(0.,0.,1.));
#324=DIRECTION('',(0.,1.,0.));
#325=DIRECTION('',(0.,0.,1.));
#326=DIRECTION('',(0.,-1.,0.));
#327=DIRECTION('',(0.,0.,-1.));
#328=CARTESIAN_POINT('',(0.,0.,0.));
#329=CARTESIAN_POINT('',(206.009134811526,58.,7.76158677654047));
#330=CARTESIAN_POINT('',(213.5,58.,7.5));
#331=CARTESIAN_POINT('',(124.811594185969,58.,10.5970673760224));
#332=CARTESIAN_POINT('',(213.5,58.0000000247248,0.));
#333=CARTESIAN_POINT('',(213.5,58.,-7.50000000000001));
#334=CARTESIAN_POINT('',(206.532308364607,58.,-7.74331715348915));
#335=CARTESIAN_POINT('',(124.811594185969,58.,-10.5970673760224));
#336=CARTESIAN_POINT('',(113.5,58.0000000247248,0.));
#337=CARTESIAN_POINT('',(113.5,58.0000000247248,0.));
#338=CARTESIAN_POINT('',(213.5,52.,3.30000000000003));
#339=CARTESIAN_POINT('',(213.5,58.,3.30000000000003));
#340=CARTESIAN_POINT('',(213.5,52.,3.30000000000003));
#341=CARTESIAN_POINT('',(213.5,58.,3.30000000000003));
#342=CARTESIAN_POINT('',(213.5,51.9999999752753,0.));
#343=CARTESIAN_POINT('',(213.5,52.,-3.30000000000003));
#344=CARTESIAN_POINT('',(213.5,58.,-3.30000000000003));
#345=CARTESIAN_POINT('',(213.5,52.,-3.30000000000003));
#346=CARTESIAN_POINT('',(213.5,58.,-3.30000000000003));
#347=CARTESIAN_POINT('',(213.5,52.,0.));
#348=CARTESIAN_POINT('',(213.5,66.,0.));
#349=CARTESIAN_POINT('',(213.5,66.,3.30000000000003));
#350=CARTESIAN_POINT('',(213.5,43.,0.));
#351=CARTESIAN_POINT('',(113.5,29.,0.));
#352=CARTESIAN_POINT('',(113.5,29.,-15.));
#353=CARTESIAN_POINT('',(113.5,29.,0.));
#354=CARTESIAN_POINT('',(113.5,52.,0.));
#355=CARTESIAN_POINT('',(113.5,52.,-15.));
#356=CARTESIAN_POINT('',(113.5,16.5,0.));
#357=CARTESIAN_POINT('',(213.5,52.,7.00000000000001));
#358=CARTESIAN_POINT('',(227.5,52.,7.00000000000001));
#359=CARTESIAN_POINT('',(227.5,52.,-7.));
#360=CARTESIAN_POINT('',(213.5,52.,-7.00000000000001));
#361=CARTESIAN_POINT('',(213.5,51.9999999752753,7.00000000000001));
#362=CARTESIAN_POINT('',(213.5,51.9999999752753,-7.00000000000001));
#363=CARTESIAN_POINT('',(126.130355341649,52.,-10.5510152216902));
#364=CARTESIAN_POINT('',(124.8115941597,51.9999999752753,-10.5970673769397));
#365=CARTESIAN_POINT('',(213.5,52.,-7.5));
#366=CARTESIAN_POINT('',(213.5,51.9999999752753,0.));
#367=CARTESIAN_POINT('',(213.5,51.9999999752753,7.5));
#368=CARTESIAN_POINT('',(125.607181788568,52.,10.5692848447415));
#369=CARTESIAN_POINT('',(124.811594185986,52.,10.5970673760218));
#370=CARTESIAN_POINT('',(113.5,51.9999999752753,0.));
#371=CARTESIAN_POINT('',(113.5,51.9999999752753,0.));
#372=CARTESIAN_POINT('',(124.811594185969,58.,10.5970673760224));
#373=CARTESIAN_POINT('',(125.641490286716,57.2188956192019,10.5680867655861));
#374=CARTESIAN_POINT('',(126.1864694882,56.1295757873119,10.5490556725132));
#375=CARTESIAN_POINT('',(126.188165334224,53.8760426004884,10.5489964522651));
#376=CARTESIAN_POINT('',(125.642054785434,52.7816356911921,10.5680670528565));
#377=CARTESIAN_POINT('',(124.811594185977,52.0000000000075,10.5970673760221));
#378=CARTESIAN_POINT('',(124.811594185969,57.9999999999999,-10.5970673760224));
#379=CARTESIAN_POINT('',(125.641490291093,57.2188956150826,-10.5680867654332));
#380=CARTESIAN_POINT('',(126.18646949359,56.1295757751706,-10.549055672325));
#381=CARTESIAN_POINT('',(126.188165328861,53.8760425769769,-10.5489964524524));
#382=CARTESIAN_POINT('',(125.642054769816,52.7816356654801,-10.5680670534018));
#383=CARTESIAN_POINT('',(124.8115941597,51.9999999752753,-10.5970673769397));
#384=CARTESIAN_POINT('',(113.5,55.,0.));
#385=CARTESIAN_POINT('',(213.5,43.,7.50000000000001));
#386=CARTESIAN_POINT('',(213.5,55.,7.5));
#387=CARTESIAN_POINT('',(213.5,52.,-7.5));
#388=CARTESIAN_POINT('',(213.5,55.,-7.5));
#389=CARTESIAN_POINT('',(213.5,66.,0.));
#390=CARTESIAN_POINT('',(213.5,66.,7.50000000000001));
#391=CARTESIAN_POINT('',(213.5,43.,0.));
#392=CARTESIAN_POINT('',(217.5,66.,0.));
#393=(
GEOMETRIC_REPRESENTATION_CONTEXT(3)
GLOBAL_UNCERTAINTY_ASSIGNED_CONTEXT((#394))
GLOBAL_UNIT_ASSIGNED_CONTEXT((#400,#396,#395))
REPRESENTATION_CONTEXT('QA_100_N','TOP_LEVEL_ASSEMBLY_PART')
);
#394=UNCERTAINTY_MEASURE_WITH_UNIT(LENGTH_MEASURE(0.0508),#400,
'DISTANCE_ACCURACY_VALUE','Maximum Tolerance applied to model');
#395=(
NAMED_UNIT(*)
SI_UNIT($,.STERADIAN.)
SOLID_ANGLE_UNIT()
);
#396=(
CONVERSION_BASED_UNIT('DEGREE',#398)
NAMED_UNIT(#397)
PLANE_ANGLE_UNIT()
);
#397=DIMENSIONAL_EXPONENTS(0.,0.,0.,0.,0.,0.,0.);
#398=PLANE_ANGLE_MEASURE_WITH_UNIT(PLANE_ANGLE_MEASURE(0.0174532925),#399);
#399=(
NAMED_UNIT(*)
PLANE_ANGLE_UNIT()
SI_UNIT($,.RADIAN.)
);
#400=(
LENGTH_UNIT()
NAMED_UNIT(*)
SI_UNIT(.MILLI.,.METRE.)
);
ENDSEC;
END-ISO-10303-21;
